ISO-10303-21;
HEADER;
/* Generated by software containing ST-Developer
 * from STEP Tools, Inc. (www.steptools.com) 
 */

FILE_DESCRIPTION(
/* description */ (''),
/* implementation_level */ '2;1');

FILE_NAME(
/* name */ 'SAHN65C.dxf',
/* time_stamp */ '2012-11-23T16:51:51+08:00',
/* author */ (''),
/* organization */ (''),
/* preprocessor_version */ 'ST-DEVELOPER v9',
/* originating_system */ 'UGS - NX 4.0',
/* authorisation */ '');

FILE_SCHEMA (('CONFIG_CONTROL_DESIGN'));
ENDSEC;

DATA;
#10=SHAPE_REPRESENTATION_RELATIONSHIP('None',
'relationship between Admi91ACxn9p-None and Admi91ACxn9p-None',#94,#11);
#11=ADVANCED_BREP_SHAPE_REPRESENTATION('Admi91ACxn9p-None',(#95),#391);
#12=CC_DESIGN_APPROVAL(#24,(#82));
#13=CC_DESIGN_APPROVAL(#25,(#84));
#14=CC_DESIGN_APPROVAL(#26,(#31));
#15=APPROVAL_PERSON_ORGANIZATION(#69,#24,#18);
#16=APPROVAL_PERSON_ORGANIZATION(#70,#25,#19);
#17=APPROVAL_PERSON_ORGANIZATION(#71,#26,#20);
#18=APPROVAL_ROLE('approver');
#19=APPROVAL_ROLE('approver');
#20=APPROVAL_ROLE('approver');
#21=APPROVAL_DATE_TIME(#39,#24);
#22=APPROVAL_DATE_TIME(#40,#25);
#23=APPROVAL_DATE_TIME(#41,#26);
#24=APPROVAL(#27,' ');
#25=APPROVAL(#28,' ');
#26=APPROVAL(#29,' ');
#27=APPROVAL_STATUS('not_yet_approved');
#28=APPROVAL_STATUS('not_yet_approved');
#29=APPROVAL_STATUS('not_yet_approved');
#30=CC_DESIGN_SECURITY_CLASSIFICATION(#31,(#84));
#31=SECURITY_CLASSIFICATION(' ',' ',#32);
#32=SECURITY_CLASSIFICATION_LEVEL('confidential');
#33=CC_DESIGN_DATE_AND_TIME_ASSIGNMENT(#37,#35,(#82));
#34=CC_DESIGN_DATE_AND_TIME_ASSIGNMENT(#38,#36,(#31));
#35=DATE_TIME_ROLE('creation_date');
#36=DATE_TIME_ROLE('classification_date');
#37=DATE_AND_TIME(#52,#42);
#38=DATE_AND_TIME(#53,#43);
#39=DATE_AND_TIME(#54,#44);
#40=DATE_AND_TIME(#55,#45);
#41=DATE_AND_TIME(#56,#46);
#42=LOCAL_TIME(0,0,0.,#47);
#43=LOCAL_TIME(0,0,0.,#48);
#44=LOCAL_TIME(0,0,0.,#49);
#45=LOCAL_TIME(0,0,0.,#50);
#46=LOCAL_TIME(0,0,0.,#51);
#47=COORDINATED_UNIVERSAL_TIME_OFFSET(0,0,.BEHIND.);
#48=COORDINATED_UNIVERSAL_TIME_OFFSET(0,0,.BEHIND.);
#49=COORDINATED_UNIVERSAL_TIME_OFFSET(0,0,.BEHIND.);
#50=COORDINATED_UNIVERSAL_TIME_OFFSET(0,0,.BEHIND.);
#51=COORDINATED_UNIVERSAL_TIME_OFFSET(0,0,.BEHIND.);
#52=CALENDAR_DATE(0,1,1);
#53=CALENDAR_DATE(0,1,1);
#54=CALENDAR_DATE(0,1,1);
#55=CALENDAR_DATE(0,1,1);
#56=CALENDAR_DATE(0,1,1);
#57=CC_DESIGN_PERSON_AND_ORGANIZATION_ASSIGNMENT(#65,#61,(#82,#84));
#58=CC_DESIGN_PERSON_AND_ORGANIZATION_ASSIGNMENT(#66,#62,(#86));
#59=CC_DESIGN_PERSON_AND_ORGANIZATION_ASSIGNMENT(#67,#63,(#84));
#60=CC_DESIGN_PERSON_AND_ORGANIZATION_ASSIGNMENT(#68,#64,(#31));
#61=PERSON_AND_ORGANIZATION_ROLE('creator');
#62=PERSON_AND_ORGANIZATION_ROLE('design_owner');
#63=PERSON_AND_ORGANIZATION_ROLE('design_supplier');
#64=PERSON_AND_ORGANIZATION_ROLE('classification_officer');
#65=PERSON_AND_ORGANIZATION(#79,#72);
#66=PERSON_AND_ORGANIZATION(#79,#73);
#67=PERSON_AND_ORGANIZATION(#79,#74);
#68=PERSON_AND_ORGANIZATION(#79,#75);
#69=PERSON_AND_ORGANIZATION(#79,#76);
#70=PERSON_AND_ORGANIZATION(#79,#77);
#71=PERSON_AND_ORGANIZATION(#79,#78);
#72=ORGANIZATION(' ',' ',' ');
#73=ORGANIZATION(' ',' ',' ');
#74=ORGANIZATION(' ',' ',' ');
#75=ORGANIZATION(' ',' ',' ');
#76=ORGANIZATION(' ',' ',' ');
#77=ORGANIZATION(' ',' ',' ');
#78=ORGANIZATION(' ',' ',' ');
#79=PERSON(' ',' ',' ',(' '),$,$);
#80=SHAPE_DEFINITION_REPRESENTATION(#81,#94);
#81=PRODUCT_DEFINITION_SHAPE('','',#82);
#82=PRODUCT_DEFINITION(' ','',#84,#83);
#83=DESIGN_CONTEXT('',#93,'design');
#84=PRODUCT_DEFINITION_FORMATION_WITH_SPECIFIED_SOURCE(' ',' ',#86,.NOT_KNOWN.);
#85=PRODUCT_RELATED_PRODUCT_CATEGORY('detail','',(#86));
#86=PRODUCT('Admi91ACxn9p','Admi91ACxn9p',' ',(#91));
#87=PRODUCT_CATEGORY_RELATIONSHIP(' ',' ',#89,#90);
#88=PRODUCT_CATEGORY_RELATIONSHIP('','',#90,#85);
#89=PRODUCT_CATEGORY('part',' ');
#90=PRODUCT_CATEGORY(' ','');
#91=MECHANICAL_CONTEXT(' ',#93,'mechanical');
#92=APPLICATION_PROTOCOL_DEFINITION('international standard',
'config_control_design',1994,#93);
#93=APPLICATION_CONTEXT(
'configuration controlled 3D designs of mechanical parts and assemblies
');
#94=SHAPE_REPRESENTATION('Admi91ACxn9p-None',(#223),#391);
#95=MANIFOLD_SOLID_BREP('',#96);
#96=CLOSED_SHELL('',(#109,#110,#111,#112,#113,#114,#115,#116,#117,#118,#119,
#120));
#97=B_SPLINE_CURVE_WITH_KNOTS('',3,(#315,#316,#317,#318,#319,#320,#321,#322,
#323,#324,#325,#326,#327,#328,#329,#330,#331,#332,#333,#334,#335,#336,#337,
#338,#339,#340,#341,#342,#343,#344,#345,#346,#347,#348),.UNSPECIFIED.,.T.,
.F.,(2,2,2,2,2,2,2,2,2,2,2,2,2,2,2,2,2,2,2),(-0.0625,0.,0.0624999999999999,
0.125,0.1875,0.25,0.3125,0.375,0.4375,0.5,0.5625,0.625,0.6875,0.75,0.8125,
0.875,0.9375,1.,1.0625),.UNSPECIFIED.);
#98=B_SPLINE_CURVE_WITH_KNOTS('',3,(#351,#352,#353,#354,#355,#356,#357,#358,
#359,#360,#361,#362,#363,#364,#365,#366,#367,#368,#369,#370,#371,#372,#373,
#374,#375,#376,#377,#378,#379,#380,#381,#382,#383,#384),.UNSPECIFIED.,.T.,
.F.,(2,2,2,2,2,2,2,2,2,2,2,2,2,2,2,2,2,2,2),(-0.0625,0.,0.0625,0.125,0.1875,
0.25,0.3125,0.375,0.4375,0.5,0.5625,0.625,0.6875,0.75,0.8125,0.875,0.9375,
1.,1.0625),.UNSPECIFIED.);
#99=TOROIDAL_SURFACE('',#233,11.5,2.);
#100=TOROIDAL_SURFACE('',#237,16.5,3.);
#101=TOROIDAL_SURFACE('',#240,31.4906907054047,1.00935222550018);
#102=TOROIDAL_SURFACE('',#243,31.4784049090888,1.02182331042366);
#103=PLANE('',#231);
#104=PLANE('',#239);
#105=PLANE('',#244);
#106=CYLINDRICAL_SURFACE('',#227,2.49999999999985);
#107=CYLINDRICAL_SURFACE('',#235,13.5);
#108=CYLINDRICAL_SURFACE('',#241,32.5005208364226);
#109=ADVANCED_FACE('',(#192,#123),#121,.F.);
#110=ADVANCED_FACE('',(#193,#194),#106,.F.);
#111=ADVANCED_FACE('',(#195,#124),#122,.F.);
#112=ADVANCED_FACE('',(#196,#125),#103,.F.);
#113=ADVANCED_FACE('',(#197,#198),#99,.T.);
#114=ADVANCED_FACE('',(#199,#200),#107,.T.);
#115=ADVANCED_FACE('',(#201,#202),#100,.F.);
#116=ADVANCED_FACE('',(#203,#126),#104,.F.);
#117=ADVANCED_FACE('',(#204,#205),#101,.T.);
#118=ADVANCED_FACE('',(#206,#207),#108,.T.);
#119=ADVANCED_FACE('',(#208,#209),#102,.T.);
#120=ADVANCED_FACE('',(#127),#105,.F.);
#121=CONICAL_SURFACE('',#225,2.49999999999989,59.999999999998);
#122=CONICAL_SURFACE('',#229,2.99999999999981,45.);
#123=FACE_OUTER_BOUND('',#128,.T.);
#124=FACE_OUTER_BOUND('',#132,.T.);
#125=FACE_OUTER_BOUND('',#134,.T.);
#126=FACE_OUTER_BOUND('',#142,.T.);
#127=FACE_OUTER_BOUND('',#149,.T.);
#128=EDGE_LOOP('',(#150));
#129=EDGE_LOOP('',(#151));
#130=EDGE_LOOP('',(#152));
#131=EDGE_LOOP('',(#153));
#132=EDGE_LOOP('',(#154));
#133=EDGE_LOOP('',(#155));
#134=EDGE_LOOP('',(#156));
#135=EDGE_LOOP('',(#157));
#136=EDGE_LOOP('',(#158));
#137=EDGE_LOOP('',(#159));
#138=EDGE_LOOP('',(#160));
#139=EDGE_LOOP('',(#161));
#140=EDGE_LOOP('',(#162));
#141=EDGE_LOOP('',(#163));
#142=EDGE_LOOP('',(#164));
#143=EDGE_LOOP('',(#165));
#144=EDGE_LOOP('',(#166));
#145=EDGE_LOOP('',(#167));
#146=EDGE_LOOP('',(#168));
#147=EDGE_LOOP('',(#169));
#148=EDGE_LOOP('',(#170));
#149=EDGE_LOOP('',(#171));
#150=ORIENTED_EDGE('',*,*,#172,.T.);
#151=ORIENTED_EDGE('',*,*,#172,.F.);
#152=ORIENTED_EDGE('',*,*,#173,.T.);
#153=ORIENTED_EDGE('',*,*,#173,.F.);
#154=ORIENTED_EDGE('',*,*,#174,.T.);
#155=ORIENTED_EDGE('',*,*,#174,.F.);
#156=ORIENTED_EDGE('',*,*,#175,.T.);
#157=ORIENTED_EDGE('',*,*,#175,.F.);
#158=ORIENTED_EDGE('',*,*,#176,.T.);
#159=ORIENTED_EDGE('',*,*,#176,.F.);
#160=ORIENTED_EDGE('',*,*,#177,.T.);
#161=ORIENTED_EDGE('',*,*,#177,.F.);
#162=ORIENTED_EDGE('',*,*,#178,.T.);
#163=ORIENTED_EDGE('',*,*,#178,.F.);
#164=ORIENTED_EDGE('',*,*,#179,.T.);
#165=ORIENTED_EDGE('',*,*,#179,.F.);
#166=ORIENTED_EDGE('',*,*,#180,.T.);
#167=ORIENTED_EDGE('',*,*,#180,.F.);
#168=ORIENTED_EDGE('',*,*,#181,.T.);
#169=ORIENTED_EDGE('',*,*,#181,.F.);
#170=ORIENTED_EDGE('',*,*,#182,.T.);
#171=ORIENTED_EDGE('',*,*,#182,.F.);
#172=EDGE_CURVE('',#212,#212,#183,.T.);
#173=EDGE_CURVE('',#213,#213,#184,.T.);
#174=EDGE_CURVE('',#214,#214,#185,.T.);
#175=EDGE_CURVE('',#215,#215,#186,.T.);
#176=EDGE_CURVE('',#216,#216,#187,.T.);
#177=EDGE_CURVE('',#217,#217,#188,.T.);
#178=EDGE_CURVE('',#218,#218,#189,.T.);
#179=EDGE_CURVE('',#219,#219,#190,.T.);
#180=EDGE_CURVE('',#220,#220,#97,.T.);
#181=EDGE_CURVE('',#221,#221,#98,.T.);
#182=EDGE_CURVE('',#222,#222,#191,.T.);
#183=CIRCLE('',#224,2.49999999999989);
#184=CIRCLE('',#226,2.49999999999981);
#185=CIRCLE('',#228,2.99999999999981);
#186=CIRCLE('',#230,11.5);
#187=CIRCLE('',#232,13.5);
#188=CIRCLE('',#234,13.5);
#189=CIRCLE('',#236,16.5);
#190=CIRCLE('',#238,31.4999999999999);
#191=CIRCLE('',#242,31.5);
#192=FACE_BOUND('',#210,.T.);
#193=FACE_BOUND('',#129,.T.);
#194=FACE_BOUND('',#130,.T.);
#195=FACE_BOUND('',#131,.T.);
#196=FACE_BOUND('',#133,.T.);
#197=FACE_BOUND('',#135,.T.);
#198=FACE_BOUND('',#136,.T.);
#199=FACE_BOUND('',#137,.T.);
#200=FACE_BOUND('',#138,.T.);
#201=FACE_BOUND('',#139,.T.);
#202=FACE_BOUND('',#140,.T.);
#203=FACE_BOUND('',#141,.T.);
#204=FACE_BOUND('',#143,.T.);
#205=FACE_BOUND('',#144,.T.);
#206=FACE_BOUND('',#145,.T.);
#207=FACE_BOUND('',#146,.T.);
#208=FACE_BOUND('',#147,.T.);
#209=FACE_BOUND('',#148,.T.);
#210=VERTEX_LOOP('',#211);
#211=VERTEX_POINT('',#290);
#212=VERTEX_POINT('',#292);
#213=VERTEX_POINT('',#295);
#214=VERTEX_POINT('',#298);
#215=VERTEX_POINT('',#301);
#216=VERTEX_POINT('',#304);
#217=VERTEX_POINT('',#307);
#218=VERTEX_POINT('',#310);
#219=VERTEX_POINT('',#313);
#220=VERTEX_POINT('',#349);
#221=VERTEX_POINT('',#385);
#222=VERTEX_POINT('',#388);
#223=AXIS2_PLACEMENT_3D('',#289,#245,#246);
#224=AXIS2_PLACEMENT_3D('',#291,#247,#248);
#225=AXIS2_PLACEMENT_3D('',#293,#249,#250);
#226=AXIS2_PLACEMENT_3D('',#294,#251,#252);
#227=AXIS2_PLACEMENT_3D('',#296,#253,#254);
#228=AXIS2_PLACEMENT_3D('',#297,#255,#256);
#229=AXIS2_PLACEMENT_3D('',#299,#257,#258);
#230=AXIS2_PLACEMENT_3D('',#300,#259,#260);
#231=AXIS2_PLACEMENT_3D('',#302,#261,#262);
#232=AXIS2_PLACEMENT_3D('',#303,#263,#264);
#233=AXIS2_PLACEMENT_3D('',#305,#265,#266);
#234=AXIS2_PLACEMENT_3D('',#306,#267,#268);
#235=AXIS2_PLACEMENT_3D('',#308,#269,#270);
#236=AXIS2_PLACEMENT_3D('',#309,#271,#272);
#237=AXIS2_PLACEMENT_3D('',#311,#273,#274);
#238=AXIS2_PLACEMENT_3D('',#312,#275,#276);
#239=AXIS2_PLACEMENT_3D('',#314,#277,#278);
#240=AXIS2_PLACEMENT_3D('',#350,#279,#280);
#241=AXIS2_PLACEMENT_3D('',#386,#281,#282);
#242=AXIS2_PLACEMENT_3D('',#387,#283,#284);
#243=AXIS2_PLACEMENT_3D('',#389,#285,#286);
#244=AXIS2_PLACEMENT_3D('',#390,#287,#288);
#245=DIRECTION('',(0.,0.,1.));
#246=DIRECTION('',(1.,0.,0.));
#247=DIRECTION('',(1.,0.,0.));
#248=DIRECTION('',(0.,0.,-1.));
#249=DIRECTION('',(1.,0.,0.));
#250=DIRECTION('',(-3.20031854870057E-017,0.,-1.));
#251=DIRECTION('',(1.,0.,0.));
#252=DIRECTION('',(0.,0.,-1.));
#253=DIRECTION('',(1.,0.,0.));
#254=DIRECTION('',(0.,0.,-1.));
#255=DIRECTION('',(1.,0.,0.));
#256=DIRECTION('',(0.,0.,-1.));
#257=DIRECTION('',(1.,0.,0.));
#258=DIRECTION('',(-2.76725579418035E-017,0.,-1.));
#259=DIRECTION('',(1.,0.,0.));
#260=DIRECTION('',(0.,0.,-1.));
#261=DIRECTION('',(-1.,0.,0.));
#262=DIRECTION('',(0.,0.,1.));
#263=DIRECTION('',(1.,0.,0.));
#264=DIRECTION('',(0.,0.,-1.));
#265=DIRECTION('',(1.,0.,0.));
#266=DIRECTION('',(0.,0.,-1.));
#267=DIRECTION('',(1.,0.,0.));
#268=DIRECTION('',(0.,0.,-1.));
#269=DIRECTION('',(1.,0.,0.));
#270=DIRECTION('',(0.,0.,-1.));
#271=DIRECTION('',(1.,0.,0.));
#272=DIRECTION('',(0.,0.,-1.));
#273=DIRECTION('',(1.,0.,0.));
#274=DIRECTION('',(0.,0.,-1.));
#275=DIRECTION('',(1.,0.,0.));
#276=DIRECTION('',(0.,0.,-1.));
#277=DIRECTION('',(-1.,0.,0.));
#278=DIRECTION('',(0.,0.,1.));
#279=DIRECTION('',(1.,0.,0.));
#280=DIRECTION('',(0.,0.,-1.));
#281=DIRECTION('',(1.,0.,0.));
#282=DIRECTION('',(0.,0.,-1.));
#283=DIRECTION('',(1.,0.,0.));
#284=DIRECTION('',(0.,0.,-1.));
#285=DIRECTION('',(1.,0.,0.));
#286=DIRECTION('',(0.,0.,-1.));
#287=DIRECTION('',(1.,0.,0.));
#288=DIRECTION('',(0.,0.,-1.));
#289=CARTESIAN_POINT('',(0.,0.,0.));
#290=CARTESIAN_POINT('',(200.556624327026,130.,0.));
#291=CARTESIAN_POINT('',(202.,130.,0.));
#292=CARTESIAN_POINT('',(202.,130.,-2.49999999999989));
#293=CARTESIAN_POINT('',(202.,130.,0.));
#294=CARTESIAN_POINT('',(211.5,130.,0.));
#295=CARTESIAN_POINT('',(211.5,130.,-2.49999999999981));
#296=CARTESIAN_POINT('',(216.999999999999,130.,0.));
#297=CARTESIAN_POINT('',(212.,130.,0.));
#298=CARTESIAN_POINT('',(212.,130.,-2.99999999999981));
#299=CARTESIAN_POINT('',(212.,130.,0.));
#300=CARTESIAN_POINT('',(212.,130.,0.));
#301=CARTESIAN_POINT('',(212.,130.,-11.5));
#302=CARTESIAN_POINT('',(212.,141.5,0.));
#303=CARTESIAN_POINT('',(210.,130.,0.));
#304=CARTESIAN_POINT('',(210.,130.,-13.5));
#305=CARTESIAN_POINT('',(210.,130.,0.));
#306=CARTESIAN_POINT('',(197.,130.,0.));
#307=CARTESIAN_POINT('',(197.,130.,-13.5));
#308=CARTESIAN_POINT('',(216.999999999999,130.,0.));
#309=CARTESIAN_POINT('',(194.,130.,0.));
#310=CARTESIAN_POINT('',(194.,130.,-16.5));
#311=CARTESIAN_POINT('',(197.,130.,0.));
#312=CARTESIAN_POINT('',(194.,130.,0.));
#313=CARTESIAN_POINT('',(194.,130.,-31.4999999999999));
#314=CARTESIAN_POINT('',(194.,161.5,0.));
#315=CARTESIAN_POINT('',(193.000694048943,162.499993359835,-4.25423918254062));
#316=CARTESIAN_POINT('',(193.000694048943,162.499993359835,4.25423918254062));
#317=CARTESIAN_POINT('',(193.000694048943,161.654105524381,8.50680450362748));
#318=CARTESIAN_POINT('',(193.000694048943,158.398051819428,16.3676135179411));
#319=CARTESIAN_POINT('',(193.000694048943,155.989167068021,19.9727643184932));
#320=CARTESIAN_POINT('',(193.000694048943,149.972764318493,25.9891670680211));
#321=CARTESIAN_POINT('',(193.000694048943,146.367613517941,28.3980518194276));
#322=CARTESIAN_POINT('',(193.000694048943,138.506804503628,31.654105524381));
#323=CARTESIAN_POINT('',(193.000694048943,134.254239182541,32.4999933598351));
#324=CARTESIAN_POINT('',(193.000694048943,125.745760817459,32.4999933598351));
#325=CARTESIAN_POINT('',(193.000694048943,121.493195496372,31.654105524381));
#326=CARTESIAN_POINT('',(193.000694048943,113.632386482059,28.3980518194276));
#327=CARTESIAN_POINT('',(193.000694048943,110.027235681507,25.9891670680211));
#328=CARTESIAN_POINT('',(193.000694048943,104.010832931979,19.9727643184931));
#329=CARTESIAN_POINT('',(193.000694048943,101.601948180572,16.3676135179411));
#330=CARTESIAN_POINT('',(193.000694048943,98.345894475619,8.50680450362748));
#331=CARTESIAN_POINT('',(193.000694048943,97.5000066401649,4.25423918254062));
#332=CARTESIAN_POINT('',(193.000694048943,97.500006640165,-4.25423918254062));
#333=CARTESIAN_POINT('',(193.000694048943,98.345894475619,-8.50680450362748));
#334=CARTESIAN_POINT('',(193.000694048943,101.601948180572,-16.3676135179411));
#335=CARTESIAN_POINT('',(193.000694048943,104.010832931979,-19.9727643184931));
#336=CARTESIAN_POINT('',(193.000694048943,110.027235681507,-25.9891670680211));
#337=CARTESIAN_POINT('',(193.000694048943,113.632386482059,-28.3980518194276));
#338=CARTESIAN_POINT('',(193.000694048943,121.493195496372,-31.654105524381));
#339=CARTESIAN_POINT('',(193.000694048943,125.745760817459,-32.4999933598351));
#340=CARTESIAN_POINT('',(193.000694048943,134.254239182541,-32.4999933598351));
#341=CARTESIAN_POINT('',(193.000694048943,138.506804503627,-31.654105524381));
#342=CARTESIAN_POINT('',(193.000694048943,146.367613517941,-28.3980518194276));
#343=CARTESIAN_POINT('',(193.000694048943,149.972764318493,-25.9891670680211));
#344=CARTESIAN_POINT('',(193.000694048943,155.989167068021,-19.9727643184931));
#345=CARTESIAN_POINT('',(193.000694048943,158.398051819428,-16.3676135179411));
#346=CARTESIAN_POINT('',(193.000694048943,161.654105524381,-8.50680450362748));
#347=CARTESIAN_POINT('',(193.000694048943,162.499993359835,-4.25423918254062));
#348=CARTESIAN_POINT('',(193.000694048943,162.499993359835,4.25423918254062));
#349=CARTESIAN_POINT('',(193.00069537237,162.500257098129,1.98996876960244E-015));
#350=CARTESIAN_POINT('',(192.990690705405,130.,0.));
#351=CARTESIAN_POINT('',(181.009925417525,162.500520836423,-4.25430822906448));
#352=CARTESIAN_POINT('',(181.009925417525,162.500520836423,4.25430822906447));
#353=CARTESIAN_POINT('',(181.009925417525,161.654619272165,8.50694256950832));
#354=CARTESIAN_POINT('',(181.009925417525,158.39851272129,16.3678791651623));
#355=CARTESIAN_POINT('',(181.009925417525,155.989588873558,19.9730884774999));
#356=CARTESIAN_POINT('',(181.009925417525,149.9730884775,25.9895888735583));
#357=CARTESIAN_POINT('',(181.009925417525,146.367879165162,28.39851272129));
#358=CARTESIAN_POINT('',(181.009925417525,138.506942569508,31.6546192721649));
#359=CARTESIAN_POINT('',(181.009925417525,134.254308229064,32.5005208364226));
#360=CARTESIAN_POINT('',(181.009925417525,125.745691770936,32.5005208364226));
#361=CARTESIAN_POINT('',(181.009925417525,121.493057430492,31.6546192721649));
#362=CARTESIAN_POINT('',(181.009925417525,113.632120834838,28.39851272129));
#363=CARTESIAN_POINT('',(181.009925417525,110.0269115225,25.9895888735583));
#364=CARTESIAN_POINT('',(181.009925417525,104.010411126442,19.9730884774999));
#365=CARTESIAN_POINT('',(181.009925417525,101.60148727871,16.3678791651623));
#366=CARTESIAN_POINT('',(181.009925417525,98.3453807278351,8.50694256950834));
#367=CARTESIAN_POINT('',(181.009925417525,97.4994791635774,4.25430822906447));
#368=CARTESIAN_POINT('',(181.009925417525,97.4994791635774,-4.25430822906446));
#369=CARTESIAN_POINT('',(181.009925417525,98.3453807278351,-8.50694256950833));
#370=CARTESIAN_POINT('',(181.009925417525,101.60148727871,-16.3678791651623));
#371=CARTESIAN_POINT('',(181.009925417525,104.010411126442,-19.9730884774999));
#372=CARTESIAN_POINT('',(181.009925417525,110.0269115225,-25.9895888735583));
#373=CARTESIAN_POINT('',(181.009925417525,113.632120834838,-28.39851272129));
#374=CARTESIAN_POINT('',(181.009925417525,121.493057430492,-31.6546192721649));
#375=CARTESIAN_POINT('',(181.009925417525,125.745691770936,-32.5005208364226));
#376=CARTESIAN_POINT('',(181.009925417525,134.254308229064,-32.5005208364226));
#377=CARTESIAN_POINT('',(181.009925417525,138.506942569508,-31.6546192721649));
#378=CARTESIAN_POINT('',(181.009925417525,146.367879165162,-28.39851272129));
#379=CARTESIAN_POINT('',(181.009925417525,149.9730884775,-25.9895888735583));
#380=CARTESIAN_POINT('',(181.009925417525,155.989588873558,-19.9730884774999));
#381=CARTESIAN_POINT('',(181.009925417525,158.39851272129,-16.3678791651623));
#382=CARTESIAN_POINT('',(181.009925417525,161.654619272165,-8.50694256950834));
#383=CARTESIAN_POINT('',(181.009925417525,162.500520836423,-4.25430822906448));
#384=CARTESIAN_POINT('',(181.009925417525,162.500520836423,4.25430822906447));
#385=CARTESIAN_POINT('',(181.009925981817,162.50034121512,-1.99000621767156E-015));
#386=CARTESIAN_POINT('',(216.999999999999,130.,0.));
#387=CARTESIAN_POINT('',(180.,130.,0.));
#388=CARTESIAN_POINT('',(180.,130.,-31.5));
#389=CARTESIAN_POINT('',(181.021595090911,130.,0.));
#390=CARTESIAN_POINT('',(180.,130.,0.));
#391=(
GEOMETRIC_REPRESENTATION_CONTEXT(3)
GLOBAL_UNCERTAINTY_ASSIGNED_CONTEXT((#392))
GLOBAL_UNIT_ASSIGNED_CONTEXT((#398,#394,#393))
REPRESENTATION_CONTEXT('SAHN65C','TOP_LEVEL_ASSEMBLY_PART')
);
#392=UNCERTAINTY_MEASURE_WITH_UNIT(LENGTH_MEASURE(0.0508),#398,
'DISTANCE_ACCURACY_VALUE','Maximum Tolerance applied to model');
#393=(
NAMED_UNIT(*)
SI_UNIT($,.STERADIAN.)
SOLID_ANGLE_UNIT()
);
#394=(
CONVERSION_BASED_UNIT('DEGREE',#396)
NAMED_UNIT(#395)
PLANE_ANGLE_UNIT()
);
#395=DIMENSIONAL_EXPONENTS(0.,0.,0.,0.,0.,0.,0.);
#396=PLANE_ANGLE_MEASURE_WITH_UNIT(PLANE_ANGLE_MEASURE(0.0174532925),#397);
#397=(
NAMED_UNIT(*)
PLANE_ANGLE_UNIT()
SI_UNIT($,.RADIAN.)
);
#398=(
LENGTH_UNIT()
NAMED_UNIT(*)
SI_UNIT(.MILLI.,.METRE.)
);
ENDSEC;
END-ISO-10303-21;
